ISO-10303-21;
HEADER;
FILE_DESCRIPTION (( 'STEP AP203' ),
    '1' );
FILE_NAME ('Q-SHPHWP-18-355-M.STEP',
    '2020-12-22T08:58:32',
    ( '' ),
    ( '' ),
    'SwSTEP 2.0',
    'SolidWorks 2020',
    '' );
FILE_SCHEMA (( 'CONFIG_CONTROL_DESIGN' ));
ENDSEC;

DATA;
#1 = DIRECTION ( 'NONE',  ( 0.000000000000000000, 0.000000000000000000, 1.000000000000000000 ) ) ;
#2 = AXIS2_PLACEMENT_3D ( 'NONE', #322, #239, #65 ) ;
#3 = LINE ( 'NONE', #159, #17 ) ;
#4 = CARTESIAN_POINT ( 'NONE',  ( -3.000000000000000000, 0.000000000000000000, 12.69999999999999929 ) ) ;
#5 = CLOSED_SHELL ( 'NONE', ( #242, #327, #248, #286, #187, #226, #168, #272, #297, #79 ) ) ;
#6 = LINE ( 'NONE', #174, #279 ) ;
#7 = FACE_OUTER_BOUND ( 'NONE', #57, .T. ) ;
#8 = LOCAL_TIME ( 16, 58, 32.00000000000000000, #245 ) ;
#9 = CC_DESIGN_PERSON_AND_ORGANIZATION_ASSIGNMENT ( #302, #67, ( #175 ) ) ;
#10 = EDGE_LOOP ( 'NONE', ( #237, #292 ) ) ;
#11 = ORIENTED_EDGE ( 'NONE', *, *, #224, .F. ) ;
#12 = FACE_BOUND ( 'NONE', #107, .T. ) ;
#13 = VERTEX_POINT ( 'NONE', #85 ) ;
#14 = DIRECTION ( 'NONE',  ( -1.000000000000000000, -0.000000000000000000, -0.000000000000000000 ) ) ;
#15 = DIRECTION ( 'NONE',  ( 0.000000000000000000, 0.000000000000000000, 1.000000000000000000 ) ) ;
#16 = CARTESIAN_POINT ( 'NONE',  ( -1.614212418857619014, 0.000000000000000000, 9.000000000000000000 ) ) ;
#17 = VECTOR ( 'NONE', #14, 1000.000000000000000 ) ;
#18 = ORIENTED_EDGE ( 'NONE', *, *, #259, .F. ) ;
#19 = FACE_OUTER_BOUND ( 'NONE', #110, .T. ) ;
#20 = EDGE_CURVE ( 'NONE', #173, #228, #51, .T. ) ;
#21 = DIRECTION ( 'NONE',  ( 1.000000000000000000, 0.000000000000000000, 0.000000000000000000 ) ) ;
#22 = SECURITY_CLASSIFICATION_LEVEL ( 'unclassified' ) ;
#23 = DATE_AND_TIME ( #98, #167 ) ;
#24 = CARTESIAN_POINT ( 'NONE',  ( 2.999999999999999112, 0.000000000000000000, 0.000000000000000000 ) ) ;
#25 = EDGE_CURVE ( 'NONE', #263, #131, #95, .T. ) ;
#26 = AXIS2_PLACEMENT_3D ( 'NONE', #33, #185, #21 ) ;
#27 = LINE ( 'NONE', #335, #285 ) ;
#28 = CARTESIAN_POINT ( 'NONE',  ( 0.02700000000000108910, 0.000000000000000000, 0.000000000000000000 ) ) ;
#29 = DIRECTION ( 'NONE',  ( -1.000000000000000000, -0.000000000000000000, -0.000000000000000000 ) ) ;
#30 = CARTESIAN_POINT ( 'NONE',  ( -1.614212418857619014, 1.555301434917138433E-15, -12.69999999999999929 ) ) ;
#31 = ORIENTED_EDGE ( 'NONE', *, *, #170, .T. ) ;
#32 = ORIENTED_EDGE ( 'NONE', *, *, #20, .T. ) ;
#33 = CARTESIAN_POINT ( 'NONE',  ( 0.000000000000000000, 0.000000000000000000, 0.000000000000000000 ) ) ;
#34 = ORIENTED_EDGE ( 'NONE', *, *, #92, .F. ) ;
#35 = DIRECTION ( 'NONE',  ( -1.000000000000000000, -0.000000000000000000, -0.000000000000000000 ) ) ;
#36 = EDGE_CURVE ( 'NONE', #13, #180, #284, .T. ) ;
#37 =( LENGTH_UNIT ( ) NAMED_UNIT ( * ) SI_UNIT ( .MILLI., .METRE. ) );
#38 = CARTESIAN_POINT ( 'NONE',  ( -1.614212418857619014, 0.000000000000000000, 9.000000000000000000 ) ) ;
#39 = CARTESIAN_POINT ( 'NONE',  ( 0.02700000000000108910, 0.000000000000000000, 0.000000000000000000 ) ) ;
#40 = CARTESIAN_POINT ( 'NONE',  ( 2.999999999999999112, 0.000000000000000000, 9.000000000000000000 ) ) ;
#41 = APPROVAL ( #278, 'UNSPECIFIED' ) ;
#42 = COORDINATED_UNIVERSAL_TIME_OFFSET ( 8, 0, .AHEAD. ) ;
#43 = AXIS2_PLACEMENT_3D ( 'NONE', #142, #181, #133 ) ;
#44 = CALENDAR_DATE ( 2020, 22, 12 ) ;
#45 = CALENDAR_DATE ( 2020, 22, 12 ) ;
#46 = COORDINATED_UNIVERSAL_TIME_OFFSET ( 8, 0, .AHEAD. ) ;
#47 = AXIS2_PLACEMENT_3D ( 'NONE', #72, #129, #156 ) ;
#48 = CIRCLE ( 'NONE', #52, 9.000000000000000000 ) ;
#49 = CARTESIAN_POINT ( 'NONE',  ( -3.000000000000000000, 9.000000000000000000, 0.000000000000000000 ) ) ;
#50 = CC_DESIGN_PERSON_AND_ORGANIZATION_ASSIGNMENT ( #308, #333, ( #222 ) ) ;
#51 = CIRCLE ( 'NONE', #236, 12.69999999999999929 ) ;
#52 = AXIS2_PLACEMENT_3D ( 'NONE', #291, #253, #289 ) ;
#53 = CYLINDRICAL_SURFACE ( 'NONE', #334, 9.000000000000000000 ) ;
#54 = CYLINDRICAL_SURFACE ( 'NONE', #191, 9.000000000000000000 ) ;
#55 = ORIENTED_EDGE ( 'NONE', *, *, #193, .F. ) ;
#56 = ORIENTED_EDGE ( 'NONE', *, *, #270, .T. ) ;
#57 = EDGE_LOOP ( 'NONE', ( #158, #240, #83, #115 ) ) ;
#58 = APPLICATION_PROTOCOL_DEFINITION ( 'international standard', 'config_control_design', 1994, #169 ) ;
#59 = PRODUCT_DEFINITION_SHAPE ( 'NONE', 'NONE',  #175 ) ;
#60 = EDGE_LOOP ( 'NONE', ( #260, #235 ) ) ;
#61 = CC_DESIGN_PERSON_AND_ORGANIZATION_ASSIGNMENT ( #306, #125, ( #150 ) ) ;
#62 = ORIENTED_EDGE ( 'NONE', *, *, #36, .T. ) ;
#63 = CARTESIAN_POINT ( 'NONE',  ( -3.000000000000000000, 1.555301434917138433E-15, -12.69999999999999929 ) ) ;
#64 = AXIS2_PLACEMENT_3D ( 'NONE', #24, #305, #70 ) ;
#65 = DIRECTION ( 'NONE',  ( 0.000000000000000000, 0.000000000000000000, 1.000000000000000000 ) ) ;
#66 = CC_DESIGN_APPROVAL ( #121, ( #175 ) ) ;
#67 = PERSON_AND_ORGANIZATION_ROLE ( 'creator' ) ;
#68 = DIRECTION ( 'NONE',  ( -1.000000000000000000, -0.000000000000000000, -0.000000000000000000 ) ) ;
#69 = PERSON_AND_ORGANIZATION ( #114, #246 ) ;
#70 = DIRECTION ( 'NONE',  ( 0.000000000000000000, 0.000000000000000000, 1.000000000000000000 ) ) ;
#71 = COORDINATED_UNIVERSAL_TIME_OFFSET ( 8, 0, .AHEAD. ) ;
#72 = CARTESIAN_POINT ( 'NONE',  ( -3.000000000000000000, 0.000000000000000000, 0.000000000000000000 ) ) ;
#73 = VECTOR ( 'NONE', #136, 1000.000000000000000 ) ;
#74 = DIRECTION ( 'NONE',  ( 0.000000000000000000, 0.000000000000000000, 1.000000000000000000 ) ) ;
#75 = CIRCLE ( 'NONE', #64, 9.000000000000000000 ) ;
#76 = CC_DESIGN_PERSON_AND_ORGANIZATION_ASSIGNMENT ( #69, #166, ( #150 ) ) ;
#77 = DIRECTION ( 'NONE',  ( -1.000000000000000000, -0.000000000000000000, -0.000000000000000000 ) ) ;
#78 = FACE_OUTER_BOUND ( 'NONE', #267, .T. ) ;
#79 = ADVANCED_FACE ( 'NONE', ( #303 ), #148, .F. ) ;
#80 = AXIS2_PLACEMENT_3D ( 'NONE', #313, #223, #151 ) ;
#81 = DIRECTION ( 'NONE',  ( 1.000000000000000000, 0.000000000000000000, 0.000000000000000000 ) ) ;
#82 = ORIENTED_EDGE ( 'NONE', *, *, #193, .T. ) ;
#83 = ORIENTED_EDGE ( 'NONE', *, *, #281, .F. ) ;
#84 = CYLINDRICAL_SURFACE ( 'NONE', #2, 12.69999999999999929 ) ;
#85 = CARTESIAN_POINT ( 'NONE',  ( 0.02700000000000108910, 1.102182119232617714E-15, -9.000000000000000000 ) ) ;
#86 = CARTESIAN_POINT ( 'NONE',  ( -3.000000000000000000, 1.102182119232617714E-15, -9.000000000000000000 ) ) ;
#87 = ORIENTED_EDGE ( 'NONE', *, *, #141, .F. ) ;
#88 = PLANE ( 'NONE',  #171 ) ;
#89 = ORIENTED_EDGE ( 'NONE', *, *, #206, .F. ) ;
#90 = MANIFOLD_SOLID_BREP ( 'Ðý×', #5 ) ;
#91 = FACE_OUTER_BOUND ( 'NONE', #325, .T. ) ;
#92 = EDGE_CURVE ( 'NONE', #228, #173, #123, .T. ) ;
#93 = DIRECTION ( 'NONE',  ( -0.000000000000000000, 0.000000000000000000, 1.000000000000000000 ) ) ;
#94 = COORDINATED_UNIVERSAL_TIME_OFFSET ( 8, 0, .AHEAD. ) ;
#95 = CIRCLE ( 'NONE', #194, 9.000000000000000000 ) ;
#96 = CALENDAR_DATE ( 2020, 22, 12 ) ;
#97 = CIRCLE ( 'NONE', #80, 9.000000000000000000 ) ;
#98 = CALENDAR_DATE ( 2020, 22, 12 ) ;
#99 = APPROVAL_ROLE ( '' ) ;
#100 = CARTESIAN_POINT ( 'NONE',  ( 3.000000000000000000, 0.000000000000000000, 12.69999999999999929 ) ) ;
#101 = DIRECTION ( 'NONE',  ( 0.000000000000000000, 0.000000000000000000, -1.000000000000000000 ) ) ;
#102 = FACE_OUTER_BOUND ( 'NONE', #108, .T. ) ;
#103 = ORIENTED_EDGE ( 'NONE', *, *, #147, .T. ) ;
#104 = AXIS2_PLACEMENT_3D ( 'NONE', #28, #130, #230 ) ;
#105 = CARTESIAN_POINT ( 'NONE',  ( -1.614212418857619014, 0.000000000000000000, 0.000000000000000000 ) ) ;
#106 = UNCERTAINTY_MEASURE_WITH_UNIT (LENGTH_MEASURE( 1.000000000000000082E-05 ), #37, 'distance_accuracy_value', 'NONE');
#107 = EDGE_LOOP ( 'NONE', ( #139, #211 ) ) ;
#108 = EDGE_LOOP ( 'NONE', ( #201, #177, #62, #18 ) ) ;
#109 = CARTESIAN_POINT ( 'NONE',  ( 0.02700000000000054787, 9.000000000000000000, 0.000000000000000000 ) ) ;
#110 = EDGE_LOOP ( 'NONE', ( #203, #31, #157, #290 ) ) ;
#111 = PRODUCT ( 'Q-SHPHWP-18-355-M', 'Q-SHPHWP-18-355-M', '', ( #144 ) ) ;
#112 = ORIENTED_EDGE ( 'NONE', *, *, #122, .T. ) ;
#113 = DIRECTION ( 'NONE',  ( -1.000000000000000000, 0.000000000000000000, -0.000000000000000000 ) ) ;
#114 = PERSON ( 'UNSPECIFIED', 'UNSPECIFIED', 'UNSPECIFIED', ('UNSPECIFIED'), ('UNSPECIFIED'), ('UNSPECIFIED') ) ;
#115 = ORIENTED_EDGE ( 'NONE', *, *, #147, .F. ) ;
#116 = CARTESIAN_POINT ( 'NONE',  ( 3.000000000000000000, 0.000000000000000000, 0.000000000000000000 ) ) ;
#117 = DIRECTION ( 'NONE',  ( -1.000000000000000000, -0.000000000000000000, -0.000000000000000000 ) ) ;
#118 = CC_DESIGN_APPROVAL ( #41, ( #222 ) ) ;
#119 = CARTESIAN_POINT ( 'NONE',  ( -3.000000000000000000, 0.000000000000000000, 9.000000000000000000 ) ) ;
#120 = DATE_AND_TIME ( #44, #307 ) ;
#121 = APPROVAL ( #247, 'UNSPECIFIED' ) ;
#122 = EDGE_CURVE ( 'NONE', #233, #162, #314, .T. ) ;
#123 = CIRCLE ( 'NONE', #309, 12.69999999999999929 ) ;
#124 = DATE_AND_TIME ( #243, #329 ) ;
#125 = PERSON_AND_ORGANIZATION_ROLE ( 'design_supplier' ) ;
#126 = FACE_OUTER_BOUND ( 'NONE', #60, .T. ) ;
#127 = DIRECTION ( 'NONE',  ( 0.000000000000000000, 0.000000000000000000, 1.000000000000000000 ) ) ;
#128 = DIRECTION ( 'NONE',  ( 0.000000000000000000, 0.000000000000000000, 1.000000000000000000 ) ) ;
#129 = DIRECTION ( 'NONE',  ( -1.000000000000000000, -0.000000000000000000, -0.000000000000000000 ) ) ;
#130 = DIRECTION ( 'NONE',  ( -1.000000000000000000, -0.000000000000000000, -0.000000000000000000 ) ) ;
#131 = VERTEX_POINT ( 'NONE', #40 ) ;
#132 = VERTEX_POINT ( 'NONE', #119 ) ;
#133 = DIRECTION ( 'NONE',  ( 0.000000000000000000, 0.000000000000000000, 1.000000000000000000 ) ) ;
#134 = APPROVAL ( #220, 'UNSPECIFIED' ) ;
#135 = ORIENTED_EDGE ( 'NONE', *, *, #36, .F. ) ;
#136 = DIRECTION ( 'NONE',  ( -1.000000000000000000, -0.000000000000000000, -0.000000000000000000 ) ) ;
#137 = ORIENTED_EDGE ( 'NONE', *, *, #138, .F. ) ;
#138 = EDGE_CURVE ( 'NONE', #131, #263, #75, .T. ) ;
#139 = ORIENTED_EDGE ( 'NONE', *, *, #138, .T. ) ;
#140 = FACE_OUTER_BOUND ( 'NONE', #318, .T. ) ;
#141 = EDGE_CURVE ( 'NONE', #299, #234, #182, .T. ) ;
#142 = CARTESIAN_POINT ( 'NONE',  ( -3.000000000000000000, 0.000000000000000000, 0.000000000000000000 ) ) ;
#143 = EDGE_CURVE ( 'NONE', #173, #299, #257, .T. ) ;
#144 = MECHANICAL_CONTEXT ( 'NONE', #169, 'mechanical' ) ;
#145 = APPROVAL_DATE_TIME ( #124, #121 ) ;
#146 = SHAPE_DEFINITION_REPRESENTATION ( #59, #275 ) ;
#147 = EDGE_CURVE ( 'NONE', #228, #234, #6, .T. ) ;
#148 = PLANE ( 'NONE',  #268 ) ;
#149 = PERSON_AND_ORGANIZATION ( #114, #246 ) ;
#150 = PRODUCT_DEFINITION_FORMATION_WITH_SPECIFIED_SOURCE ( 'ANY', '', #111, .NOT_KNOWN. ) ;
#151 = DIRECTION ( 'NONE',  ( 0.000000000000000000, 0.000000000000000000, 1.000000000000000000 ) ) ;
#152 = DIRECTION ( 'NONE',  ( -1.000000000000000000, -0.000000000000000000, -0.000000000000000000 ) ) ;
#153 = CARTESIAN_POINT ( 'NONE',  ( 3.000000000000000000, 1.555301434917138433E-15, -12.69999999999999929 ) ) ;
#154 = CIRCLE ( 'NONE', #104, 9.000000000000000000 ) ;
#155 = CARTESIAN_POINT ( 'NONE',  ( -1.614212418857619014, 0.000000000000000000, 0.000000000000000000 ) ) ;
#156 = DIRECTION ( 'NONE',  ( 0.000000000000000000, 0.000000000000000000, 1.000000000000000000 ) ) ;
#157 = ORIENTED_EDGE ( 'NONE', *, *, #224, .T. ) ;
#158 = ORIENTED_EDGE ( 'NONE', *, *, #92, .T. ) ;
#159 = CARTESIAN_POINT ( 'NONE',  ( -1.614212418857619014, 1.102182119232617714E-15, -9.000000000000000000 ) ) ;
#160 = ORIENTED_EDGE ( 'NONE', *, *, #20, .F. ) ;
#161 = LINE ( 'NONE', #38, #301 ) ;
#162 = VERTEX_POINT ( 'NONE', #287 ) ;
#163 = PERSON_AND_ORGANIZATION ( #114, #246 ) ;
#164 = DIRECTION ( 'NONE',  ( 0.000000000000000000, 0.000000000000000000, -1.000000000000000000 ) ) ;
#165 = PERSON_AND_ORGANIZATION ( #114, #246 ) ;
#166 = PERSON_AND_ORGANIZATION_ROLE ( 'creator' ) ;
#167 = LOCAL_TIME ( 16, 58, 32.00000000000000000, #94 ) ;
#168 = ADVANCED_FACE ( 'NONE', ( #198, #126 ), #258, .F. ) ;
#169 = APPLICATION_CONTEXT ( 'configuration controlled 3d designs of mechanical parts and assemblies' ) ;
#170 = EDGE_CURVE ( 'NONE', #233, #316, #27, .T. ) ;
#171 = AXIS2_PLACEMENT_3D ( 'NONE', #109, #113, #261 ) ;
#172 = CARTESIAN_POINT ( 'NONE',  ( 0.02700000000000108910, 0.000000000000000000, 9.000000000000000000 ) ) ;
#173 = VERTEX_POINT ( 'NONE', #153 ) ;
#174 = CARTESIAN_POINT ( 'NONE',  ( -1.614212418857619014, 0.000000000000000000, 12.69999999999999929 ) ) ;
#175 = PRODUCT_DEFINITION ( 'UNKNOWN', '', #150, #323 ) ;
#176 = ORIENTED_EDGE ( 'NONE', *, *, #143, .F. ) ;
#177 = ORIENTED_EDGE ( 'NONE', *, *, #256, .T. ) ;
#178 = APPROVAL_PERSON_ORGANIZATION ( #165, #134, #330 ) ;
#179 = DIRECTION ( 'NONE',  ( -1.000000000000000000, 0.000000000000000000, -0.000000000000000000 ) ) ;
#180 = VERTEX_POINT ( 'NONE', #172 ) ;
#181 = DIRECTION ( 'NONE',  ( -1.000000000000000000, -0.000000000000000000, -0.000000000000000000 ) ) ;
#182 = CIRCLE ( 'NONE', #47, 12.69999999999999929 ) ;
#183 = CC_DESIGN_APPROVAL ( #134, ( #150 ) ) ;
#184 = DIRECTION ( 'NONE',  ( 0.000000000000000000, 0.000000000000000000, 1.000000000000000000 ) ) ;
#185 = DIRECTION ( 'NONE',  ( 0.000000000000000000, 0.000000000000000000, 1.000000000000000000 ) ) ;
#186 = PRODUCT_RELATED_PRODUCT_CATEGORY ( 'detail', '', ( #111 ) ) ;
#187 = ADVANCED_FACE ( 'NONE', ( #310 ), #54, .F. ) ;
#188 = DATE_TIME_ROLE ( 'classification_date' ) ;
#189 = EDGE_CURVE ( 'NONE', #162, #233, #48, .T. ) ;
#190 = DIRECTION ( 'NONE',  ( 0.000000000000000000, 0.000000000000000000, 1.000000000000000000 ) ) ;
#191 = AXIS2_PLACEMENT_3D ( 'NONE', #283, #225, #282 ) ;
#192 = ORIENTED_EDGE ( 'NONE', *, *, #206, .T. ) ;
#193 = EDGE_CURVE ( 'NONE', #180, #13, #154, .T. ) ;
#194 = AXIS2_PLACEMENT_3D ( 'NONE', #212, #216, #190 ) ;
#195 = DIRECTION ( 'NONE',  ( -1.000000000000000000, -0.000000000000000000, -0.000000000000000000 ) ) ;
#196 = AXIS2_PLACEMENT_3D ( 'NONE', #241, #179, #93 ) ;
#197 = CARTESIAN_POINT ( 'NONE',  ( -0.02700000000000054787, 1.102182119232617714E-15, -9.000000000000000000 ) ) ;
#198 = FACE_BOUND ( 'NONE', #207, .T. ) ;
#199 = AXIS2_PLACEMENT_3D ( 'NONE', #244, #215, #164 ) ;
#200 = CYLINDRICAL_SURFACE ( 'NONE', #208, 9.000000000000000000 ) ;
#201 = ORIENTED_EDGE ( 'NONE', *, *, #25, .F. ) ;
#202 = DIRECTION ( 'NONE',  ( -1.000000000000000000, -0.000000000000000000, -0.000000000000000000 ) ) ;
#203 = ORIENTED_EDGE ( 'NONE', *, *, #189, .T. ) ;
#204 = CYLINDRICAL_SURFACE ( 'NONE', #219, 9.000000000000000000 ) ;
#205 = EDGE_LOOP ( 'NONE', ( #176, #32, #103, #87 ) ) ;
#206 = EDGE_CURVE ( 'NONE', #132, #316, #252, .T. ) ;
#207 = EDGE_LOOP ( 'NONE', ( #89, #11 ) ) ;
#208 = AXIS2_PLACEMENT_3D ( 'NONE', #315, #202, #317 ) ;
#209 =( NAMED_UNIT ( * ) SI_UNIT ( $, .STERADIAN. ) SOLID_ANGLE_UNIT ( ) );
#210 = CC_DESIGN_DATE_AND_TIME_ASSIGNMENT ( #23, #188, ( #222 ) ) ;
#211 = ORIENTED_EDGE ( 'NONE', *, *, #25, .T. ) ;
#212 = CARTESIAN_POINT ( 'NONE',  ( 2.999999999999999112, 0.000000000000000000, 0.000000000000000000 ) ) ;
#213 = DATE_TIME_ROLE ( 'creation_date' ) ;
#214 = APPROVAL_PERSON_ORGANIZATION ( #163, #121, #99 ) ;
#215 = DIRECTION ( 'NONE',  ( 1.000000000000000000, 0.000000000000000000, 0.000000000000000000 ) ) ;
#216 = DIRECTION ( 'NONE',  ( -1.000000000000000000, -0.000000000000000000, -0.000000000000000000 ) ) ;
#217 = APPROVAL_DATE_TIME ( #120, #41 ) ;
#218 = APPROVAL_ROLE ( '' ) ;
#219 = AXIS2_PLACEMENT_3D ( 'NONE', #295, #300, #266 ) ;
#220 = APPROVAL_STATUS ( 'not_yet_approved' ) ;
#221 = DIRECTION ( 'NONE',  ( -1.000000000000000000, -0.000000000000000000, -0.000000000000000000 ) ) ;
#222 = SECURITY_CLASSIFICATION ( '', '', #22 ) ;
#223 = DIRECTION ( 'NONE',  ( -1.000000000000000000, -0.000000000000000000, -0.000000000000000000 ) ) ;
#224 = EDGE_CURVE ( 'NONE', #316, #132, #97, .T. ) ;
#225 = DIRECTION ( 'NONE',  ( -1.000000000000000000, -0.000000000000000000, -0.000000000000000000 ) ) ;
#226 = ADVANCED_FACE ( 'NONE', ( #78 ), #53, .F. ) ;
#227 = DIRECTION ( 'NONE',  ( -1.000000000000000000, -0.000000000000000000, -0.000000000000000000 ) ) ;
#228 = VERTEX_POINT ( 'NONE', #100 ) ;
#229 = VECTOR ( 'NONE', #227, 1000.000000000000000 ) ;
#230 = DIRECTION ( 'NONE',  ( 0.000000000000000000, 0.000000000000000000, 1.000000000000000000 ) ) ;
#231 = AXIS2_PLACEMENT_3D ( 'NONE', #254, #29, #127 ) ;
#232 = EDGE_LOOP ( 'NONE', ( #294, #137, #321, #82 ) ) ;
#233 = VERTEX_POINT ( 'NONE', #197 ) ;
#234 = VERTEX_POINT ( 'NONE', #4 ) ;
#235 = ORIENTED_EDGE ( 'NONE', *, *, #141, .T. ) ;
#236 = AXIS2_PLACEMENT_3D ( 'NONE', #265, #35, #15 ) ;
#237 = ORIENTED_EDGE ( 'NONE', *, *, #189, .F. ) ;
#238 = CIRCLE ( 'NONE', #43, 12.69999999999999929 ) ;
#239 = DIRECTION ( 'NONE',  ( -1.000000000000000000, -0.000000000000000000, -0.000000000000000000 ) ) ;
#240 = ORIENTED_EDGE ( 'NONE', *, *, #143, .T. ) ;
#241 = CARTESIAN_POINT ( 'NONE',  ( 2.999999999999999556, 12.69999999999999929, 0.000000000000000000 ) ) ;
#242 = ADVANCED_FACE ( 'NONE', ( #7 ), #312, .T. ) ;
#243 = CALENDAR_DATE ( 2020, 22, 12 ) ;
#244 = CARTESIAN_POINT ( 'NONE',  ( -0.02700000000000054787, 0.000000000000000000, 0.000000000000000000 ) ) ;
#245 = COORDINATED_UNIVERSAL_TIME_OFFSET ( 8, 0, .AHEAD. ) ;
#246 = ORGANIZATION ( 'UNSPECIFIED', 'UNSPECIFIED', '' ) ;
#247 = APPROVAL_STATUS ( 'not_yet_approved' ) ;
#248 = ADVANCED_FACE ( 'NONE', ( #102 ), #200, .F. ) ;
#249 = APPLICATION_CONTEXT ( 'configuration controlled 3d designs of mechanical parts and assemblies' ) ;
#250 = CARTESIAN_POINT ( 'NONE',  ( -0.02700000000000054787, 9.000000000000000000, 0.000000000000000000 ) ) ;
#251 = PERSON_AND_ORGANIZATION ( #114, #246 ) ;
#252 = CIRCLE ( 'NONE', #231, 9.000000000000000000 ) ;
#253 = DIRECTION ( 'NONE',  ( 1.000000000000000000, 0.000000000000000000, 0.000000000000000000 ) ) ;
#254 = CARTESIAN_POINT ( 'NONE',  ( -3.000000000000000000, 0.000000000000000000, 0.000000000000000000 ) ) ;
#255 = LOCAL_TIME ( 16, 58, 32.00000000000000000, #46 ) ;
#256 = EDGE_CURVE ( 'NONE', #263, #13, #3, .T. ) ;
#257 = LINE ( 'NONE', #30, #229 ) ;
#258 = PLANE ( 'NONE',  #328 ) ;
#259 = EDGE_CURVE ( 'NONE', #131, #180, #161, .T. ) ;
#260 = ORIENTED_EDGE ( 'NONE', *, *, #281, .T. ) ;
#261 = DIRECTION ( 'NONE',  ( -0.000000000000000000, 0.000000000000000000, 1.000000000000000000 ) ) ;
#262 = APPROVAL_PERSON_ORGANIZATION ( #149, #41, #218 ) ;
#263 = VERTEX_POINT ( 'NONE', #269 ) ;
#264 = DIRECTION ( 'NONE',  ( -1.000000000000000000, -0.000000000000000000, -0.000000000000000000 ) ) ;
#265 = CARTESIAN_POINT ( 'NONE',  ( 3.000000000000000000, 0.000000000000000000, 0.000000000000000000 ) ) ;
#266 = DIRECTION ( 'NONE',  ( 0.000000000000000000, 0.000000000000000000, 1.000000000000000000 ) ) ;
#267 = EDGE_LOOP ( 'NONE', ( #296, #112, #56, #192 ) ) ;
#268 = AXIS2_PLACEMENT_3D ( 'NONE', #250, #332, #326 ) ;
#269 = CARTESIAN_POINT ( 'NONE',  ( 2.999999999999999112, 1.102182119232617714E-15, -9.000000000000000000 ) ) ;
#270 = EDGE_CURVE ( 'NONE', #162, #132, #324, .T. ) ;
#271 =( GEOMETRIC_REPRESENTATION_CONTEXT ( 3 ) GLOBAL_UNCERTAINTY_ASSIGNED_CONTEXT ( ( #106 ) ) GLOBAL_UNIT_ASSIGNED_CONTEXT ( ( #37, #293, #209 ) ) REPRESENTATION_CONTEXT ( 'NONE', 'WORKASPACE' ) );
#272 = ADVANCED_FACE ( 'NONE', ( #319 ), #84, .T. ) ;
#273 = DATE_AND_TIME ( #96, #255 ) ;
#274 = PERSON_AND_ORGANIZATION_ROLE ( 'design_owner' ) ;
#275 = ADVANCED_BREP_SHAPE_REPRESENTATION ( 'Q-SHPHWP-18-355-M', ( #90, #26 ), #271 ) ;
#276 = APPROVAL_DATE_TIME ( #277, #134 ) ;
#277 = DATE_AND_TIME ( #45, #8 ) ;
#278 = APPROVAL_STATUS ( 'not_yet_approved' ) ;
#279 = VECTOR ( 'NONE', #152, 1000.000000000000000 ) ;
#280 = AXIS2_PLACEMENT_3D ( 'NONE', #105, #77, #128 ) ;
#281 = EDGE_CURVE ( 'NONE', #234, #299, #238, .T. ) ;
#282 = DIRECTION ( 'NONE',  ( 0.000000000000000000, 0.000000000000000000, 1.000000000000000000 ) ) ;
#283 = CARTESIAN_POINT ( 'NONE',  ( -1.614212418857619014, 0.000000000000000000, 0.000000000000000000 ) ) ;
#284 = CIRCLE ( 'NONE', #331, 9.000000000000000000 ) ;
#285 = VECTOR ( 'NONE', #195, 1000.000000000000000 ) ;
#286 = ADVANCED_FACE ( 'NONE', ( #91 ), #88, .F. ) ;
#287 = CARTESIAN_POINT ( 'NONE',  ( -0.02700000000000054787, 0.000000000000000000, 9.000000000000000000 ) ) ;
#288 = CC_DESIGN_PERSON_AND_ORGANIZATION_ASSIGNMENT ( #251, #274, ( #111 ) ) ;
#289 = DIRECTION ( 'NONE',  ( 0.000000000000000000, 0.000000000000000000, -1.000000000000000000 ) ) ;
#290 = ORIENTED_EDGE ( 'NONE', *, *, #270, .F. ) ;
#291 = CARTESIAN_POINT ( 'NONE',  ( -0.02700000000000054787, 0.000000000000000000, 0.000000000000000000 ) ) ;
#292 = ORIENTED_EDGE ( 'NONE', *, *, #122, .F. ) ;
#293 =( NAMED_UNIT ( * ) PLANE_ANGLE_UNIT ( ) SI_UNIT ( $, .RADIAN. ) );
#294 = ORIENTED_EDGE ( 'NONE', *, *, #256, .F. ) ;
#295 = CARTESIAN_POINT ( 'NONE',  ( -1.614212418857619014, 0.000000000000000000, 0.000000000000000000 ) ) ;
#296 = ORIENTED_EDGE ( 'NONE', *, *, #170, .F. ) ;
#297 = ADVANCED_FACE ( 'NONE', ( #140, #12 ), #298, .F. ) ;
#298 = PLANE ( 'NONE',  #196 ) ;
#299 = VERTEX_POINT ( 'NONE', #63 ) ;
#300 = DIRECTION ( 'NONE',  ( -1.000000000000000000, -0.000000000000000000, -0.000000000000000000 ) ) ;
#301 = VECTOR ( 'NONE', #264, 1000.000000000000000 ) ;
#302 = PERSON_AND_ORGANIZATION ( #114, #246 ) ;
#303 = FACE_OUTER_BOUND ( 'NONE', #10, .T. ) ;
#304 = APPLICATION_PROTOCOL_DEFINITION ( 'international standard', 'config_control_design', 1994, #249 ) ;
#305 = DIRECTION ( 'NONE',  ( -1.000000000000000000, -0.000000000000000000, -0.000000000000000000 ) ) ;
#306 = PERSON_AND_ORGANIZATION ( #114, #246 ) ;
#307 = LOCAL_TIME ( 16, 58, 32.00000000000000000, #71 ) ;
#308 = PERSON_AND_ORGANIZATION ( #114, #246 ) ;
#309 = AXIS2_PLACEMENT_3D ( 'NONE', #116, #68, #74 ) ;
#310 = FACE_OUTER_BOUND ( 'NONE', #232, .T. ) ;
#311 = CC_DESIGN_SECURITY_CLASSIFICATION ( #222, ( #150 ) ) ;
#312 = CYLINDRICAL_SURFACE ( 'NONE', #280, 12.69999999999999929 ) ;
#313 = CARTESIAN_POINT ( 'NONE',  ( -3.000000000000000000, 0.000000000000000000, 0.000000000000000000 ) ) ;
#314 = CIRCLE ( 'NONE', #199, 9.000000000000000000 ) ;
#315 = CARTESIAN_POINT ( 'NONE',  ( -1.614212418857619014, 0.000000000000000000, 0.000000000000000000 ) ) ;
#316 = VERTEX_POINT ( 'NONE', #86 ) ;
#317 = DIRECTION ( 'NONE',  ( 0.000000000000000000, 0.000000000000000000, 1.000000000000000000 ) ) ;
#318 = EDGE_LOOP ( 'NONE', ( #34, #160 ) ) ;
#319 = FACE_OUTER_BOUND ( 'NONE', #205, .T. ) ;
#320 = CC_DESIGN_DATE_AND_TIME_ASSIGNMENT ( #273, #213, ( #175 ) ) ;
#321 = ORIENTED_EDGE ( 'NONE', *, *, #259, .T. ) ;
#322 = CARTESIAN_POINT ( 'NONE',  ( -1.614212418857619014, 0.000000000000000000, 0.000000000000000000 ) ) ;
#323 = DESIGN_CONTEXT ( 'detailed design', #249, 'design' ) ;
#324 = LINE ( 'NONE', #16, #73 ) ;
#325 = EDGE_LOOP ( 'NONE', ( #55, #135 ) ) ;
#326 = DIRECTION ( 'NONE',  ( 0.000000000000000000, 0.000000000000000000, -1.000000000000000000 ) ) ;
#327 = ADVANCED_FACE ( 'NONE', ( #19 ), #204, .F. ) ;
#328 = AXIS2_PLACEMENT_3D ( 'NONE', #49, #81, #101 ) ;
#329 = LOCAL_TIME ( 16, 58, 32.00000000000000000, #42 ) ;
#330 = APPROVAL_ROLE ( '' ) ;
#331 = AXIS2_PLACEMENT_3D ( 'NONE', #39, #117, #184 ) ;
#332 = DIRECTION ( 'NONE',  ( 1.000000000000000000, 0.000000000000000000, 0.000000000000000000 ) ) ;
#333 = PERSON_AND_ORGANIZATION_ROLE ( 'classification_officer' ) ;
#334 = AXIS2_PLACEMENT_3D ( 'NONE', #155, #221, #1 ) ;
#335 = CARTESIAN_POINT ( 'NONE',  ( -1.614212418857619014, 1.102182119232617714E-15, -9.000000000000000000 ) ) ;
ENDSEC;
END-ISO-10303-21;
